  0
SECTION
  2
HEADER
  9
$ACADVER
  1
AC1015
  9
$ACADMAINTVER
 70
     6
  9
$DWGCODEPAGE
  3
ANSI_1254
  9
$INSBASE
 10
0.0
 20
0.0
 30
0.0
  9
$EXTMIN
 10
0.0
 20
0.0
 30
0.0
  9
$EXTMAX
 10
279.4
 20
215.9
 30
0.0
  9
$LIMMIN
 10
0.0
 20
0.0
  9
$LIMMAX
 10
279.4
 20
215.9
  9
$ORTHOMODE
 70
     0
  9
$REGENMODE
 70
     1
  9
$FILLMODE
 70
     1
  9
$QTEXTMODE
 70
     0
  9
$MIRRTEXT
 70
     1
  9
$LTSCALE
 40
1.0
  9
$ATTMODE
 70
     1
  9
$TEXTSIZE
 40
3.5
  9
$TRACEWID
 40
1.0
  9
$TEXTSTYLE
  7
Standard
  9
$CLAYER
  8
0
  9
$CELTYPE
  6
ByLayer
  9
$CECOLOR
 62
   256
  9
$CELTSCALE
 40
1.0
  9
$DISPSILH
 70
     0
  9
$DIMSCALE
 40
1.0
  9
$DIMASZ
 40
3.5
  9
$DIMEXO
 40
1.0
  9
$DIMDLI
 40
3.75
  9
$DIMRND
 40
0.0
  9
$DIMDLE
 40
0.0
  9
$DIMEXE
 40
1.0
  9
$DIMTP
 40
0.0
  9
$DIMTM
 40
0.0
  9
$DIMTXT
 40
3.5
  9
$DIMCEN
 40
2.5
  9
$DIMTSZ
 40
0.0
  9
$DIMTOL
 70
     0
  9
$DIMLIM
 70
     0
  9
$DIMTIH
 70
     1
  9
$DIMTOH
 70
     1
  9
$DIMSE1
 70
     0
  9
$DIMSE2
 70
     0
  9
$DIMTAD
 70
     1
  9
$DIMZIN
 70
     0
  9
$DIMBLK
  1

  9
$DIMASO
 70
     1
  9
$DIMSHO
 70
     1
  9
$DIMPOST
  1

  9
$DIMAPOST
  1

  9
$DIMALT
 70
     0
  9
$DIMALTD
 70
     3
  9
$DIMALTF
 40
0.0393700787
  9
$DIMLFAC
 40
1.0
  9
$DIMTOFL
 70
     1
  9
$DIMTVP
 40
0.0
  9
$DIMTIX
 70
     0
  9
$DIMSOXD
 70
     0
  9
$DIMSAH
 70
     0
  9
$DIMBLK1
  1

  9
$DIMBLK2
  1

  9
$DIMSTYLE
  2
ISO-25
  9
$DIMCLRD
 70
     0
  9
$DIMCLRE
 70
     0
  9
$DIMCLRT
 70
     0
  9
$DIMTFAC
 40
1.0
  9
$DIMGAP
 40
1.524
  9
$DIMJUST
 70
     0
  9
$DIMSD1
 70
     0
  9
$DIMSD2
 70
     0
  9
$DIMTOLJ
 70
     0
  9
$DIMTZIN
 70
     0
  9
$DIMALTZ
 70
     0
  9
$DIMALTTZ
 70
     0
  9
$DIMUPT
 70
     0
  9
$DIMDEC
 70
     2
  9
$DIMTDEC
 70
     2
  9
$DIMALTU
 70
     2
  9
$DIMALTTD
 70
     3
  9
$DIMTXSTY
  7
Standard
  9
$DIMAUNIT
 70
     0
  9
$DIMADEC
 70
     2
  9
$DIMALTRND
 40
0.0
  9
$DIMAZIN
 70
     0
  9
$DIMDSEP
 70
    44
  9
$DIMATFIT
 70
     3
  9
$DIMFRAC
 70
     0
  9
$DIMLDRBLK
  1

  9
$DIMLUNIT
 70
     2
  9
$DIMLWD
 70
    -2
  9
$DIMLWE
 70
    -2
  9
$DIMTMOVE
 70
     0
  9
$LUNITS
 70
     2
  9
$LUPREC
 70
     2
  9
$SKETCHINC
 40
1.0
  9
$FILLETRAD
 40
10.0
  9
$AUNITS
 70
     0
  9
$AUPREC
 70
     2
  9
$MENU
  1
.
  9
$ELEVATION
 40
0.0
  9
$PELEVATION
 40
0.0
  9
$THICKNESS
 40
0.0
  9
$LIMCHECK
 70
     0
  9
$CHAMFERA
 40
0.0
  9
$CHAMFERB
 40
0.0
  9
$CHAMFERC
 40
0.0
  9
$CHAMFERD
 40
0.0
  9
$SKPOLY
 70
     0
  9
$TDCREATE
 40
2458985.681980636
  9
$TDUCREATE
 40
2458985.556980636
  9
$TDUPDATE
 40
2458985.681980926
  9
$TDUUPDATE
 40
2458985.556980926
  9
$TDINDWG
 40
0.0000000116
  9
$TDUSRTIMER
 40
0.0000000116
  9
$USRTIMER
 70
     1
  9
$ANGBASE
 50
0.0
  9
$ANGDIR
 70
     0
  9
$PDMODE
 70
     0
  9
$PDSIZE
 40
-1.0
  9
$PLINEWID
 40
0.0
  9
$SPLFRAME
 70
     0
  9
$SPLINETYPE
 70
     6
  9
$SPLINESEGS
 70
     8
  9
$HANDSEED
  5
CB
  9
$SURFTAB1
 70
     6
  9
$SURFTAB2
 70
     6
  9
$SURFTYPE
 70
     6
  9
$SURFU
 70
     6
  9
$SURFV
 70
     6
  9
$UCSBASE
  2

  9
$UCSNAME
  2

  9
$UCSORG
 10
0.0
 20
0.0
 30
0.0
  9
$UCSXDIR
 10
1.0
 20
0.0
 30
0.0
  9
$UCSYDIR
 10
0.0
 20
1.0
 30
0.0
  9
$UCSORTHOREF
  2

  9
$UCSORTHOVIEW
 70
     0
  9
$UCSORGTOP
 10
0.0
 20
0.0
 30
0.0
  9
$UCSORGBOTTOM
 10
0.0
 20
0.0
 30
0.0
  9
$UCSORGLEFT
 10
0.0
 20
0.0
 30
0.0
  9
$UCSORGRIGHT
 10
0.0
 20
0.0
 30
0.0
  9
$UCSORGFRONT
 10
0.0
 20
0.0
 30
0.0
  9
$UCSORGBACK
 10
0.0
 20
0.0
 30
0.0
  9
$PUCSBASE
  2

  9
$PUCSNAME
  2

  9
$PUCSORG
 10
0.0
 20
0.0
 30
0.0
  9
$PUCSXDIR
 10
1.0
 20
0.0
 30
0.0
  9
$PUCSYDIR
 10
0.0
 20
1.0
 30
0.0
  9
$PUCSORTHOREF
  2

  9
$PUCSORTHOVIEW
 70
     0
  9
$PUCSORGTOP
 10
0.0
 20
0.0
 30
0.0
  9
$PUCSORGBOTTOM
 10
0.0
 20
0.0
 30
0.0
  9
$PUCSORGLEFT
 10
0.0
 20
0.0
 30
0.0
  9
$PUCSORGRIGHT
 10
0.0
 20
0.0
 30
0.0
  9
$PUCSORGFRONT
 10
0.0
 20
0.0
 30
0.0
  9
$PUCSORGBACK
 10
0.0
 20
0.0
 30
0.0
  9
$USERI1
 70
     0
  9
$USERI2
 70
     0
  9
$USERI3
 70
     0
  9
$USERI4
 70
     0
  9
$USERI5
 70
     0
  9
$USERR1
 40
0.0
  9
$USERR2
 40
0.0
  9
$USERR3
 40
0.0
  9
$USERR4
 40
0.0
  9
$USERR5
 40
0.0
  9
$WORLDVIEW
 70
     1
  9
$SHADEDGE
 70
     3
  9
$SHADEDIF
 70
    70
  9
$TILEMODE
 70
     1
  9
$MAXACTVP
 70
    64
  9
$PINSBASE
 10
0.0
 20
0.0
 30
0.0
  9
$PLIMCHECK
 70
     0
  9
$PEXTMIN
 10
1.0000000000E+20
 20
1.0000000000E+20
 30
1.0000000000E+20
  9
$PEXTMAX
 10
-1.0000000000E+20
 20
-1.0000000000E+20
 30
-1.0000000000E+20
  9
$PLIMMIN
 10
0.0
 20
0.0
  9
$PLIMMAX
 10
420.0
 20
297.0
  9
$UNITMODE
 70
     0
  9
$VISRETAIN
 70
     1
  9
$PLINEGEN
 70
     0
  9
$PSLTSCALE
 70
     1
  9
$TREEDEPTH
 70
  3020
  9
$CMLSTYLE
  2
Standard
  9
$CMLJUST
 70
     0
  9
$CMLSCALE
 40
20.0
  9
$PROXYGRAPHICS
 70
     1
  9
$MEASUREMENT
 70
     1
  9
$CELWEIGHT
370
    -1
  9
$ENDCAPS
280
     0
  9
$JOINSTYLE
280
     0
  9
$LWDISPLAY
290
     1
  9
$INSUNITS
 70
     4
  9
$HYPERLINKBASE
  1

  9
$STYLESHEET
  1

  9
$XEDIT
290
     1
  9
$CEPSNTYPE
380
     0
  9
$PSTYLEMODE
290
     1
  9
$FINGERPRINTGUID
  2
{0657fa9a-2ace-4b70-864a-0e4d4b7d56d3}
  9
$VERSIONGUID
  2
{FAEB1C32-E019-11D5-929B-00C0DF256EC4}
  9
$EXTNAMES
290
     1
  9
$PSVPSCALE
 40
0.0
  9
$OLESTARTUP
290
     0
  0
ENDSEC
  0
SECTION
  2
CLASSES
  0
CLASS
  1
ACDBDICTIONARYWDFLT
  2
AcDbDictionaryWithDefault
  3
ObjectDBX Classes
 90
        0
280
     0
281
     0
  0
CLASS
  1
VISUALSTYLE
  2
AcDbVisualStyle
  3
ObjectDBX Classes
 90
     4095
280
     0
281
     0
  0
CLASS
  1
MATERIAL
  2
AcDbMaterial
  3
ObjectDBX Classes
 90
     1153
280
     0
281
     0
  0
CLASS
  1
SCALE
  2
AcDbScale
  3
ObjectDBX Classes
 90
     1153
280
     0
281
     0
  0
CLASS
  1
TABLESTYLE
  2
AcDbTableStyle
  3
ObjectDBX Classes
 90
     4095
280
     0
281
     0
  0
CLASS
  1
MLEADERSTYLE
  2
AcDbMLeaderStyle
  3
ACDB_MLEADERSTYLE_CLASS
 90
     4095
280
     0
281
     0
  0
CLASS
  1
SUN
  2
AcDbSun
  3
SCENEOE
 90
     1153
280
     0
281
     0
  0
CLASS
  1
ACDBPLACEHOLDER
  2
AcDbPlaceHolder
  3
ObjectDBX Classes
 90
        0
280
     0
281
     0
  0
CLASS
  1
LAYOUT
  2
AcDbLayout
  3
ObjectDBX Classes
 90
        0
280
     0
281
     0
  0
ENDSEC
  0
SECTION
  2
TABLES
  0
TABLE
  2
VPORT
  5
8
330
0
100
AcDbSymbolTable
 70
     1
  0
VPORT
  5
29
330
8
100
AcDbSymbolTableRecord
100
AcDbViewportTableRecord
  2
*Active
 70
     0
 10
0.0
 20
0.0
 11
1.0
 21
1.0
 12
139.7
 22
107.95
 13
0.0
 23
0.0
 14
10.0
 24
10.0
 15
10.0
 25
10.0
 16
0.0
 26
0.0
 36
1.0
 17
0.0
 27
0.0
 37
0.0
 40
215.9
 41
1.2941176471
 42
50.0
 43
0.0
 44
0.0
 50
0.0
 51
0.0
 71
     0
 72
  2000
 73
     1
 74
     3
 75
     0
 76
     0
 77
     0
 78
     0
281
     0
 65
     1
110
0.0
120
0.0
130
0.0
111
1.0
121
0.0
131
0.0
112
0.0
122
1.0
132
0.0
 79
     0
146
0.0
  0
ENDTAB
  0
TABLE
  2
LTYPE
  5
5
330
0
100
AcDbSymbolTable
 70
     6
  0
LTYPE
  5
14
330
5
100
AcDbSymbolTableRecord
100
AcDbLinetypeTableRecord
  2
ByBlock
 70
     0
  3

 72
    65
 73
     0
 40
0.0
  0
LTYPE
  5
15
330
5
100
AcDbSymbolTableRecord
100
AcDbLinetypeTableRecord
  2
ByLayer
 70
     0
  3

 72
    65
 73
     0
 40
0.0
  0
LTYPE
  5
16
330
5
100
AcDbSymbolTableRecord
100
AcDbLinetypeTableRecord
  2
Continuous
 70
     0
  3
Solid line
 72
    65
 73
     0
 40
0.0
  0
LTYPE
  5
6E
330
5
100
AcDbSymbolTableRecord
100
AcDbLinetypeTableRecord
  2
HIDDEN
 70
     0
  3
Hidden __ __ __ __ __ __ __ __ __ __ __ __ __ __
 72
    65
 73
     2
 40
1.905
 49
1.27
 74
     0
 49
-0.635
 74
     0
  0
LTYPE
  5
6F
330
5
100
AcDbSymbolTableRecord
100
AcDbLinetypeTableRecord
  2
PHANTOM
 70
     0
  3
Phantom ______  __  __  ______  __  __  ______
 72
    65
 73
     6
 40
12.7
 49
6.35
 74
     0
 49
-1.27
 74
     0
 49
1.27
 74
     0
 49
-1.27
 74
     0
 49
1.27
 74
     0
 49
-1.27
 74
     0
  0
LTYPE
  5
70
330
5
100
AcDbSymbolTableRecord
100
AcDbLinetypeTableRecord
  2
CENTER
 70
     0
  3
Center ____ _ ____ _ ____ _ ____ _ ____ _ ____
 72
    65
 73
     4
 40
10.16
 49
6.35
 74
     0
 49
-1.27
 74
     0
 49
1.27
 74
     0
 49
-1.27
 74
     0
  0
LTYPE
  5
71
330
5
100
AcDbSymbolTableRecord
100
AcDbLinetypeTableRecord
  2
CENTERX2
 70
     0
  3
Center (2x) ________  __  ________  __  _____
 72
    65
 73
     4
 40
20.32
 49
12.7
 74
     0
 49
-2.54
 74
     0
 49
2.54
 74
     0
 49
-2.54
 74
     0
  0
LTYPE
  5
72
330
5
100
AcDbSymbolTableRecord
100
AcDbLinetypeTableRecord
  2
DOT2
 70
     0
  3
Dot (.5x) ........................................
 72
    65
 73
     2
 40
0.635
 49
0.0
 74
     0
 49
-0.635
 74
     0
  0
ENDTAB
  0
TABLE
  2
LAYER
  5
2
330
0
100
AcDbSymbolTable
 70
    17
  0
LAYER
  5
10
330
2
100
AcDbSymbolTableRecord
100
AcDbLayerTableRecord
  2
0
 70
     0
 62
     7
  6
Continuous
370
    -3
390
F
  0
LAYER
  5
73
330
2
100
AcDbSymbolTableRecord
100
AcDbLayerTableRecord
  2
FORMAT
 70
     0
 62
     7
  6
Continuous
370
    -3
390
F
  0
LAYER
  5
74
330
2
100
AcDbSymbolTableRecord
100
AcDbLayerTableRecord
  2
YARDIMCI_GEOMETRI
 70
     0
 62
    -6
  6
Continuous
290
     0
370
    -3
390
F
  0
LAYER
  5
75
330
2
100
AcDbSymbolTableRecord
100
AcDbLayerTableRecord
  2
SAYFA_CERCEVESI
 70
     0
 62
     7
  6
Continuous
370
    25
390
F
  0
LAYER
  5
76
330
2
100
AcDbSymbolTableRecord
100
AcDbLayerTableRecord
  2
ANTET
 70
     0
 62
     7
  6
Continuous
370
    -3
390
F
  0
LAYER
  5
77
330
2
100
AcDbSymbolTableRecord
100
AcDbLayerTableRecord
  2
OLCU
 70
     0
 62
   150
  6
Continuous
370
    -3
390
F
  0
LAYER
  5
78
330
2
100
AcDbSymbolTableRecord
100
AcDbLayerTableRecord
  2
METIN
 70
     0
 62
    96
  6
Continuous
370
    -3
390
F
  0
LAYER
  5
79
330
2
100
AcDbSymbolTableRecord
100
AcDbLayerTableRecord
  2
BALON
 70
     0
 62
     5
  6
Continuous
370
    -3
390
F
  0
LAYER
  5
7A
330
2
100
AcDbSymbolTableRecord
100
AcDbLayerTableRecord
  2
VURGU
 70
     0
 62
     7
  6
Continuous
370
    -3
390
F
  0
LAYER
  5
7B
330
2
100
AcDbSymbolTableRecord
100
AcDbLayerTableRecord
  2
SILIK
 70
     0
 62
     7
  6
Continuous
370
    -3
390
F
  0
LAYER
  5
7C
330
2
100
AcDbSymbolTableRecord
100
AcDbLayerTableRecord
  2
MODEL
 70
     0
 62
     7
  6
Continuous
370
    -3
390
F
  0
LAYER
  5
7D
330
2
100
AcDbSymbolTableRecord
100
AcDbLayerTableRecord
  2
DETAYLANDıRMA
 70
     0
 62
   190
  6
Continuous
370
    -3
390
F
  0
LAYER
  5
7E
330
2
100
AcDbSymbolTableRecord
100
AcDbLayerTableRecord
  2
TOLERANS
 70
     0
 62
   230
  6
Continuous
370
    -3
390
F
  0
LAYER
  5
7F
330
2
100
AcDbSymbolTableRecord
100
AcDbLayerTableRecord
  2
MERKEZ_CIZGILERI
 70
     0
 62
    30
  6
Continuous
370
    -3
390
F
  0
LAYER
  5
80
330
2
100
AcDbSymbolTableRecord
100
AcDbLayerTableRecord
  2
KESIT-DETAY_CIZGILERI
 70
     0
 62
     7
  6
Continuous
370
    -3
390
F
  0
LAYER
  5
81
330
2
100
AcDbSymbolTableRecord
100
AcDbLayerTableRecord
  2
\U+041E\U+0421\U+0415\U+0412\U+042B\U+0415
 70
     0
 62
     7
  6
Continuous
370
    -3
390
F
  0
LAYER
  5
82
330
2
100
AcDbSymbolTableRecord
100
AcDbLayerTableRecord
  2
\U+0412\U+041E\U+0414\U+042F\U+041D\U+042B\U+0415_\U+0417\U+041D\U+0410\U+041A\U+0418
 70
     0
 62
    11
  6
Continuous
370
    -3
390
F
  0
ENDTAB
  0
TABLE
  2
STYLE
  5
3
330
0
100
AcDbSymbolTable
 70
     1
  0
STYLE
  5
11
330
3
100
AcDbSymbolTableRecord
100
AcDbTextStyleTableRecord
  2
Standard
 70
     0
 40
0.0
 41
1.0
 50
0.0
 71
     0
 42
3.5
  3
txt
  4

  0
ENDTAB
  0
TABLE
  2
VIEW
  5
6
330
0
100
AcDbSymbolTable
 70
     0
  0
ENDTAB
  0
TABLE
  2
UCS
  5
7
330
0
100
AcDbSymbolTable
 70
     0
  0
ENDTAB
  0
TABLE
  2
APPID
  5
9
330
0
100
AcDbSymbolTable
 70
     1
  0
APPID
  5
12
330
9
100
AcDbSymbolTableRecord
100
AcDbRegAppTableRecord
  2
ACAD
 70
     0
  0
ENDTAB
  0
TABLE
  2
DIMSTYLE
  5
A
330
0
100
AcDbSymbolTable
 70
     1
100
AcDbDimStyleTable
  0
DIMSTYLE
105
27
330
A
100
AcDbSymbolTableRecord
100
AcDbDimStyleTableRecord
  2
ISO-25
 70
     0
 41
2.5
 42
0.625
 43
3.75
 44
1.25
 73
     0
 74
     0
 77
     1
 78
     8
140
2.5
141
2.5
143
0.0393700787
147
0.625
171
     3
172
     1
178
     0
271
     2
272
     2
274
     3
278
    44
283
     0
284
     8
340
11
  0
ENDTAB
  0
TABLE
  2
BLOCK_RECORD
  5
1
330
0
100
AcDbSymbolTable
 70
     3
  0
BLOCK_RECORD
  5
1F
330
1
100
AcDbSymbolTableRecord
100
AcDbBlockTableRecord
  2
*Model_Space
340
22
  0
BLOCK_RECORD
  5
1B
330
1
100
AcDbSymbolTableRecord
100
AcDbBlockTableRecord
  2
*Paper_Space
340
1E
  0
BLOCK_RECORD
  5
23
330
1
100
AcDbSymbolTableRecord
100
AcDbBlockTableRecord
  2
*Paper_Space0
340
26
  0
BLOCK_RECORD
  5
88
330
1
100
AcDbSymbolTableRecord
100
AcDbBlockTableRecord
  2
SW_CENTERMARKSYMBOL_0
340
0
102
{BLKREFS
331
93
102
}
  0
BLOCK_RECORD
  5
B2
330
1
100
AcDbSymbolTableRecord
100
AcDbBlockTableRecord
  2
SW_CENTERMARKSYMBOL_1
340
0
102
{BLKREFS
331
BD
102
}
  0
ENDTAB
  0
ENDSEC
  0
SECTION
  2
BLOCKS
  0
BLOCK
  5
20
330
1F
100
AcDbEntity
  8
0
100
AcDbBlockBegin
  2
*Model_Space
 70
     0
 10
0.0
 20
0.0
 30
0.0
  3
*Model_Space
  1

  0
ENDBLK
  5
21
330
1F
100
AcDbEntity
  8
0
100
AcDbBlockEnd
  0
BLOCK
  5
1C
330
1B
100
AcDbEntity
 67
     1
  8
0
100
AcDbBlockBegin
  2
*Paper_Space
 70
     0
 10
0.0
 20
0.0
 30
0.0
  3
*Paper_Space
  1

  0
ENDBLK
  5
1D
330
1B
100
AcDbEntity
 67
     1
  8
0
100
AcDbBlockEnd
  0
BLOCK
  5
24
330
23
100
AcDbEntity
  8
0
100
AcDbBlockBegin
  2
*Paper_Space0
 70
     0
 10
0.0
 20
0.0
 30
0.0
  3
*Paper_Space0
  1

  0
ENDBLK
  5
25
330
23
100
AcDbEntity
  8
0
100
AcDbBlockEnd
  0
BLOCK
  5
89
330
88
100
AcDbEntity
  8
0
100
AcDbBlockBegin
  2
SW_CENTERMARKSYMBOL_0
 70
     0
 10
0.0
 20
0.0
 30
0.0
  3
SW_CENTERMARKSYMBOL_0
  1

  0
LINE
  5
8B
330
88
100
AcDbEntity
  8
FORMAT
 62
     0
100
AcDbLine
 10
0.0
 20
0.0
 30
0.0
 11
0.0
 21
2.5
 31
0.0
  0
LINE
  5
8C
330
88
100
AcDbEntity
  8
FORMAT
 62
     0
100
AcDbLine
 10
0.0
 20
0.0
 30
0.0
 11
-2.5
 21
0.0
 31
0.0
  0
LINE
  5
8D
330
88
100
AcDbEntity
  8
FORMAT
 62
     0
100
AcDbLine
 10
0.0
 20
0.0
 30
0.0
 11
0.0
 21
-2.5
 31
0.0
  0
LINE
  5
8E
330
88
100
AcDbEntity
  8
FORMAT
 62
     0
100
AcDbLine
 10
0.0
 20
0.0
 30
0.0
 11
2.5
 21
0.0
 31
0.0
  0
LINE
  5
8F
330
88
100
AcDbEntity
  8
FORMAT
 62
     0
100
AcDbLine
 10
0.0
 20
5.0
 30
0.0
 11
0.0
 21
34.0
 31
0.0
  0
LINE
  5
90
330
88
100
AcDbEntity
  8
FORMAT
 62
     0
100
AcDbLine
 10
-5.0
 20
0.0
 30
0.0
 11
-34.0
 21
0.0
 31
0.0
  0
LINE
  5
91
330
88
100
AcDbEntity
  8
FORMAT
 62
     0
100
AcDbLine
 10
0.0
 20
-5.0
 30
0.0
 11
0.0
 21
-34.0
 31
0.0
  0
LINE
  5
92
330
88
100
AcDbEntity
  8
FORMAT
 62
     0
100
AcDbLine
 10
5.0
 20
0.0
 30
0.0
 11
34.0
 21
0.0
 31
0.0
  0
ENDBLK
  5
8A
330
88
100
AcDbEntity
  8
0
100
AcDbBlockEnd
  0
BLOCK
  5
B3
330
B2
100
AcDbEntity
  8
0
100
AcDbBlockBegin
  2
SW_CENTERMARKSYMBOL_1
 70
     0
 10
0.0
 20
0.0
 30
0.0
  3
SW_CENTERMARKSYMBOL_1
  1

  0
LINE
  5
B5
330
B2
100
AcDbEntity
  8
FORMAT
 62
     0
100
AcDbLine
 10
0.0
 20
0.0
 30
0.0
 11
0.0
 21
2.5
 31
0.0
  0
LINE
  5
B6
330
B2
100
AcDbEntity
  8
FORMAT
 62
     0
100
AcDbLine
 10
0.0
 20
0.0
 30
0.0
 11
-2.5
 21
0.0
 31
0.0
  0
LINE
  5
B7
330
B2
100
AcDbEntity
  8
FORMAT
 62
     0
100
AcDbLine
 10
0.0
 20
0.0
 30
0.0
 11
0.0
 21
-2.5
 31
0.0
  0
LINE
  5
B8
330
B2
100
AcDbEntity
  8
FORMAT
 62
     0
100
AcDbLine
 10
0.0
 20
0.0
 30
0.0
 11
2.5
 21
0.0
 31
0.0
  0
LINE
  5
B9
330
B2
100
AcDbEntity
  8
FORMAT
 62
     0
100
AcDbLine
 10
0.0
 20
5.0
 30
0.0
 11
0.0
 21
22.5
 31
0.0
  0
LINE
  5
BA
330
B2
100
AcDbEntity
  8
FORMAT
 62
     0
100
AcDbLine
 10
-5.0
 20
0.0
 30
0.0
 11
-22.5
 21
0.0
 31
0.0
  0
LINE
  5
BB
330
B2
100
AcDbEntity
  8
FORMAT
 62
     0
100
AcDbLine
 10
0.0
 20
-5.0
 30
0.0
 11
0.0
 21
-22.5
 31
0.0
  0
LINE
  5
BC
330
B2
100
AcDbEntity
  8
FORMAT
 62
     0
100
AcDbLine
 10
5.0
 20
0.0
 30
0.0
 11
22.5
 21
0.0
 31
0.0
  0
ENDBLK
  5
B4
330
B2
100
AcDbEntity
  8
0
100
AcDbBlockEnd
  0
ENDSEC
  0
SECTION
  2
ENTITIES
  0
LINE
  5
83
330
1F
100
AcDbEntity
  8
0
  6
Continuous
 62
     7
370
    25
100
AcDbLine
 10
142.8944776722
 20
95.0029005303
 30
0.0
 11
217.5275510204
 21
95.0029005303
 31
0.0
  0
LINE
  5
84
330
1F
100
AcDbEntity
  8
0
  6
Continuous
 62
     7
370
    25
100
AcDbLine
 10
217.5275510204
 20
135.0029005303
 30
0.0
 11
142.8995533922
 21
135.0029005303
 31
0.0
  0
CIRCLE
  5
85
330
1F
100
AcDbEntity
  8
0
  6
Continuous
 62
     7
370
    25
100
AcDbCircle
 10
118.5275510204
 20
115.0029005303
 30
0.0
 40
25.7
  0
CIRCLE
  5
86
330
1F
100
AcDbEntity
  8
0
  6
Continuous
 62
     7
370
    25
100
AcDbCircle
 10
118.5275510204
 20
115.0029005303
 30
0.0
 40
31.50000000000001
  0
LINE
  5
87
330
1F
100
AcDbEntity
  8
0
  6
Continuous
 62
     7
370
    25
100
AcDbLine
 10
217.5275510204
 20
135.0029005303
 30
0.0
 11
217.5275510204
 21
95.0029005303
 31
0.0
  0
INSERT
  5
93
330
1F
100
AcDbEntity
  8
FORMAT
100
AcDbBlockReference
  2
SW_CENTERMARKSYMBOL_0
 10
118.5275510204
 20
115.0029005303
 30
0.0
  0
LINE
  5
94
330
1F
100
AcDbEntity
  8
0
  6
Continuous
 62
     7
370
    25
100
AcDbLine
 10
87.0275510204
 20
36.4533455725
 30
0.0
 11
87.0275510204
 21
-179.5466544275
 31
0.0
  0
LINE
  5
95
330
1F
100
AcDbEntity
  8
0
  6
Continuous
 62
     7
370
    25
100
AcDbLine
 10
150.0275510204
 20
-51.5799848039
 30
0.0
 11
150.0275510204
 21
36.4533455725
 31
0.0
  0
LINE
  5
96
330
1F
100
AcDbEntity
  8
0
  6
Continuous
 62
     7
370
    25
100
AcDbLine
 10
150.0275510204
 20
-179.5466544275
 30
0.0
 11
150.0275510204
 21
-91.5466544275
 31
0.0
  0
LINE
  5
97
330
1F
100
AcDbEntity
  8
0
  6
Continuous
 62
     7
370
    25
100
AcDbLine
 10
150.0275510204
 20
-91.5466544275
 30
0.0
 11
217.5275510204
 21
-91.5466544275
 31
0.0
  0
LINE
  5
98
330
1F
100
AcDbEntity
  8
0
  6
Continuous
 62
     7
370
    25
100
AcDbLine
 10
217.5275510204
 20
-51.5466544275
 30
0.0
 11
150.0064538389
 21
-51.5466544275
 31
0.0
  0
SPLINE
  5
99
330
1F
100
AcDbEntity
  8
0
  6
Continuous
 62
     7
370
    25
100
AcDbSpline
210
0.0
220
0.0
230
1.0
 70
     8
 71
     3
 72
    30
 73
    26
 74
     0
 42
0.000000001
 43
0.00000001
 40
0.0
 40
0.0
 40
0.0
 40
0.0
 40
0.0085539302246159
 40
0.0557794039294648
 40
0.0993929197278258
 40
0.1441085190894075
 40
0.1911499782716114
 40
0.2392300241353757
 40
0.2933098321946057
 40
0.3487715811083751
 40
0.3950218920802209
 40
0.4424856477052114
 40
0.4888095009619342
 40
0.5369368145111957
 40
0.5772664950620383
 40
0.6185834307757752
 40
0.6727663585409921
 40
0.7285103059239985
 40
0.783357722026281
 40
0.8397067439398919
 40
0.8676081414936435
 40
0.8955058584628929
 40
0.9245255820624676
 40
0.9535415570415712
 40
1.0
 40
1.0
 40
1.0
 40
1.0
 10
150.0064266572678
 20
-51.57998480393324
 30
0.0
 10
150.0130513053847
 20
-51.56953168376959
 30
0.0
 10
150.0562500355008
 20
-51.50136783433193
 30
0.0
 10
149.8594699814748
 20
-51.81101681650605
 30
0.0
 10
149.4269872974027
 20
-52.50259456102772
 30
0.0
 10
148.7590854687892
 20
-53.60095959332799
 30
0.0
 10
147.9003105747018
 20
-55.08019859474092
 30
0.0
 10
146.8564563194094
 20
-57.00757379806824
 30
0.0
 10
145.6952273486567
 20
-59.39312423322997
 30
0.0
 10
144.5940163831813
 20
-62.08671191931948
 30
0.0
 10
143.698396653291
 20
-64.93366225398982
 30
0.0
 10
143.0907642547356
 20
-67.80793595276347
 30
0.0
 10
142.8084006561449
 20
-70.85644339204603
 30
0.0
 10
142.9111020700748
 20
-73.7809756985953
 30
0.0
 10
143.3245343169885
 20
-76.51445397204151
 30
0.0
 10
144.0026191165663
 20
-79.23547846348585
 30
0.0
 10
144.9829746918255
 20
-82.03362656765002
 30
0.0
 10
146.1826678180736
 20
-84.7453552447552
 30
0.0
 10
147.3990477038845
 20
-87.11630586037779
 30
0.0
 10
148.3184188746305
 20
-88.7396563794972
 30
0.0
 10
148.9438364259585
 20
-89.79538675279727
 30
0.0
 10
149.3484758040765
 20
-90.46090960681906
 30
0.0
 10
149.6703743218168
 20
-90.98050530862427
 30
0.0
 10
149.9566622999423
 20
-91.43535308510398
 30
0.0
 10
150.0005412418139
 20
-91.5042467694528
 30
0.0
 10
150.027551020408
 20
-91.54665442746435
 30
0.0
  0
LINE
  5
9A
330
1F
100
AcDbEntity
  8
0
  6
Continuous
 62
     7
370
    25
100
AcDbLine
 10
150.0275510204
 20
-179.5466544275
 30
0.0
 11
87.0275510204
 21
-179.5466544275
 31
0.0
  0
LINE
  5
9B
330
1F
100
AcDbEntity
  8
0
  6
Continuous
 62
     7
370
    25
100
AcDbLine
 10
150.0275510204
 20
36.4533455725
 30
0.0
 11
87.0275510204
 21
36.4533455725
 31
0.0
  0
LINE
  5
9C
330
1F
100
AcDbEntity
  8
0
  6
Continuous
 62
     7
370
    25
100
AcDbLine
 10
217.5275510204
 20
-51.5466544275
 30
0.0
 11
217.5275510204
 21
-91.5466544275
 31
0.0
  0
LINE
  5
9D
330
1F
100
AcDbEntity
  8
0
  6
Continuous
 62
     7
370
    25
100
AcDbLine
 10
150.0275510204
 20
315.6148851843
 30
0.0
 11
150.0275510204
 21
403.6148851843
 31
0.0
  0
LINE
  5
9E
330
1F
100
AcDbEntity
  8
0
  6
Continuous
 62
     7
370
    25
100
AcDbLine
 10
150.0275510204
 20
187.6148851843
 30
0.0
 11
150.0275510204
 21
275.6482155608
 31
0.0
  0
LINE
  5
9F
330
1F
100
AcDbEntity
  8
0
  6
Continuous
 62
     7
370
    25
100
AcDbLine
 10
87.0275510204
 20
403.6148851843
 30
0.0
 11
87.0275510204
 21
187.6148851843
 31
0.0
  0
LINE
  5
A0
330
1F
100
AcDbEntity
  8
0
  6
Continuous
 62
     7
370
    25
100
AcDbLine
 10
150.0064538389
 20
275.6148851843
 30
0.0
 11
217.5275510204
 21
275.6148851843
 31
0.0
  0
LINE
  5
A1
330
1F
100
AcDbEntity
  8
0
  6
Continuous
 62
     7
370
    25
100
AcDbLine
 10
217.5275510204
 20
315.6148851843
 30
0.0
 11
150.0275510204
 21
315.6148851843
 31
0.0
  0
SPLINE
  5
A2
330
1F
100
AcDbEntity
  8
0
  6
Continuous
 62
     7
370
    25
100
AcDbSpline
210
0.0
220
0.0
230
1.0
 70
     8
 71
     3
 72
    30
 73
    26
 74
     0
 42
0.000000001
 43
0.00000001
 40
0.0
 40
0.0
 40
0.0
 40
0.0
 40
0.0462269625698248
 40
0.09393642677408
 40
0.1401324770123102
 40
0.187488348174871
 40
0.2375318249421397
 40
0.2886966657052462
 40
0.3455011386496606
 40
0.3747096950094959
 40
0.4041895980118446
 40
0.4458900756459457
 40
0.4887356901229823
 40
0.5304706675789024
 40
0.5735005434326309
 40
0.614324432358515
 40
0.6559949723484646
 40
0.7046539956266084
 40
0.7543338579878317
 40
0.8112797504850013
 40
0.8405575802980488
 40
0.8700946961148853
 40
0.9158112608664077
 40
0.9628054310825545
 40
1.0
 40
1.0
 40
1.0
 40
1.0
 10
150.027551020408
 20
315.6148851843336
 30
0.0
 10
149.9998432131709
 20
315.5713883922213
 30
0.0
 10
149.9435390075535
 20
315.4829998631028
 30
0.0
 10
149.5008420862828
 20
314.7789355968804
 30
0.0
 10
148.8342703147334
 20
313.6866223414685
 30
0.0
 10
147.962161533251
 20
312.1917070466233
 30
0.0
 10
146.927542916432
 20
310.2909506487973
 30
0.0
 10
145.7657065753026
 20
307.9206049768815
 30
0.0
 10
144.7884147903927
 20
305.5676900417513
 30
0.0
 10
144.0657028271974
 20
303.4126584056828
 30
0.0
 10
143.5228591510097
 20
301.4425225679631
 30
0.0
 10
143.0620835266512
 20
299.0858014296824
 30
0.0
 10
142.8235429024644
 20
296.3723372435915
 30
0.0
 10
142.8954422405684
 20
293.6067959188725
 30
0.0
 10
143.2634050193087
 20
290.9465297732825
 30
0.0
 10
143.8705242807839
 20
288.4172557067293
 30
0.0
 10
144.6806120567451
 20
285.9462946326531
 30
0.0
 10
145.6689702407812
 20
283.5341584856491
 30
0.0
 10
146.8110595688786
 20
281.158178635227
 30
0.0
 10
147.7694180605633
 20
279.3869828253009
 30
0.0
 10
148.4930140219544
 20
278.1261648805028
 30
0.0
 10
149.0734583151842
 20
277.1485916067444
 30
0.0
 10
149.6073356380648
 20
276.2800981285658
 30
0.0
 10
149.9756596861261
 20
275.6964236236288
 30
0.0
 10
149.9969989670286
 20
275.6629875928385
 30
0.0
 10
150.0064266572678
 20
275.6482155608025
 30
0.0
  0
LINE
  5
A3
330
1F
100
AcDbEntity
  8
0
  6
Continuous
 62
     7
370
    25
100
AcDbLine
 10
87.0275510204
 20
403.6148851843
 30
0.0
 11
150.0275510204
 21
403.6148851843
 31
0.0
  0
LINE
  5
A4
330
1F
100
AcDbEntity
  8
0
  6
Continuous
 62
     7
370
    25
100
AcDbLine
 10
87.0275510204
 20
187.6148851843
 30
0.0
 11
150.0275510204
 21
187.6148851843
 31
0.0
  0
LINE
  5
A5
330
1F
100
AcDbEntity
  8
0
  6
Continuous
 62
     7
370
    25
100
AcDbLine
 10
217.5275510204
 20
315.6148851843
 30
0.0
 11
217.5275510204
 21
275.6148851843
 31
0.0
  0
LINE
  5
A6
330
1F
100
AcDbEntity
  8
0
  6
Continuous
 62
     7
370
    25
100
AcDbLine
 10
258.6191819595
 20
83.5029005303
 30
0.0
 11
474.6191819595
 21
83.5029005303
 31
0.0
  0
LINE
  5
A7
330
1F
100
AcDbEntity
  8
0
  6
Continuous
 62
     7
370
    25
100
AcDbLine
 10
474.6191819595
 20
146.5029005303
 30
0.0
 11
258.6191819595
 21
146.5029005303
 31
0.0
  0
LINE
  5
A8
330
1F
100
AcDbEntity
  8
0
  6
Continuous
 62
     7
370
    25
100
AcDbLine
 10
474.6191819595
 20
146.5029005303
 30
0.0
 11
474.6191819595
 21
83.5029005303
 31
0.0
  0
LINE
  5
A9
330
1F
100
AcDbEntity
  8
0
  6
Continuous
 62
     7
370
    25
100
AcDbLine
 10
258.6191819595
 20
146.5029005303
 30
0.0
 11
258.6191819595
 21
83.5029005303
 31
0.0
  0
LINE
  5
AA
330
1F
100
AcDbEntity
  8
0
  6
Continuous
 62
     7
370
    25
100
AcDbLine
 10
39.7504196128
 20
146.5029005303
 30
0.0
 11
-176.2495803872
 21
146.5029005303
 31
0.0
  0
LINE
  5
AB
330
1F
100
AcDbEntity
  8
0
  6
Continuous
 62
     7
370
    25
100
AcDbLine
 10
-176.2495803872
 20
83.5029005303
 30
0.0
 11
39.7504196128
 21
83.5029005303
 31
0.0
  0
CIRCLE
  5
AC
330
1F
100
AcDbEntity
  8
0
  6
Continuous
 62
     7
370
    25
100
AcDbCircle
 10
-68.2495803872
 20
115.0029005303
 30
0.0
 40
16.3
  0
CIRCLE
  5
AD
330
1F
100
AcDbEntity
  8
0
  6
Continuous
 62
     7
370
    25
100
AcDbCircle
 10
-68.2495803872
 20
115.0029005303
 30
0.0
 40
20.0
  0
LINE
  5
AE
330
1F
100
AcDbEntity
  8
0
  6
Continuous
 62
     7
370
    25
100
AcDbLine
 10
-176.2495803872
 20
115.0029005303
 30
0.0
 11
-176.2495803872
 21
146.5029005303
 31
0.0
  0
LINE
  5
AF
330
1F
100
AcDbEntity
  8
0
  6
Continuous
 62
     7
370
    25
100
AcDbLine
 10
-176.2495803872
 20
83.5029005303
 30
0.0
 11
-176.2495803872
 21
115.0029005303
 31
0.0
  0
LINE
  5
B0
330
1F
100
AcDbEntity
  8
0
  6
Continuous
 62
     7
370
    25
100
AcDbLine
 10
39.7504196128
 20
115.0029005303
 30
0.0
 11
39.7504196128
 21
146.5029005303
 31
0.0
  0
LINE
  5
B1
330
1F
100
AcDbEntity
  8
0
  6
Continuous
 62
     7
370
    25
100
AcDbLine
 10
39.7504196128
 20
83.5029005303
 30
0.0
 11
39.7504196128
 21
115.0029005303
 31
0.0
  0
INSERT
  5
BD
330
1F
100
AcDbEntity
  8
FORMAT
100
AcDbBlockReference
  2
SW_CENTERMARKSYMBOL_1
 10
-68.2495803872
 20
115.0029005303
 30
0.0
  0
LINE
  5
BE
330
1F
100
AcDbEntity
  8
0
  6
Continuous
 62
     7
370
    25
100
AcDbLine
 10
467.9574350177
 20
-101.9226619677
 30
0.0
 11
427.3453682199
 21
-78.4778148429
 31
0.0
  0
LINE
  5
BF
330
1F
100
AcDbEntity
  8
0
  6
Continuous
 62
     7
370
    25
100
AcDbLine
 10
387.3421172611
 20
-55.384429621
 30
0.0
 11
315.2223702814
 21
-13.7505858908
 31
0.0
  0
LINE
  5
C0
330
1F
100
AcDbEntity
  8
0
  6
Continuous
 62
     7
370
    25
100
AcDbLine
 10
283.7249302033
 20
-68.3116642208
 30
0.0
 11
436.4599949396
 21
-156.4837402977
 31
0.0
  0
LINE
  5
C1
330
1F
100
AcDbEntity
  8
0
  6
Continuous
 62
     7
370
    25
100
AcDbLine
 10
405.7426216583
 20
-90.9488149803
 30
0.0
 11
455.8439412743
 21
-62.0259388066
 31
0.0
  0
LINE
  5
C2
330
1F
100
AcDbEntity
  8
0
  6
Continuous
 62
     7
370
    25
100
AcDbLine
 10
435.8455666216
 20
-27.3839843114
 30
0.0
 11
385.7394515601
 21
-56.3096288368
 31
0.0
  0
SPLINE
  5
C3
330
1F
100
AcDbEntity
  8
0
  6
Continuous
 62
     7
370
    25
100
AcDbSpline
210
0.0
220
0.0
230
1.0
 70
     8
 71
     3
 72
    24
 73
    20
 74
     0
 42
0.000000001
 43
0.00000001
 40
0.0
 40
0.0
 40
0.0
 40
0.0
 40
0.0615705513572503
 40
0.1251156742187832
 40
0.1866450528665538
 40
0.2497192185783425
 40
0.3163730561896801
 40
0.3845204593666033
 40
0.4601793935538266
 40
0.4990828131048722
 40
0.5383476442966516
 40
0.5938892861666774
 40
0.6509561570995588
 40
0.7065437499240282
 40
0.7638560420121421
 40
0.8182301390754559
 40
0.8737319064403385
 40
0.9385417646960101
 40
1.0
 40
1.0
 40
1.0
 40
1.0
 10
383.9729105941484
 20
-64.09465421481354
 30
0.0
 10
383.9840750924129
 20
-64.9392516201114
 30
0.0
 10
384.0067621351126
 20
-66.6555327232988
 30
0.0
 10
384.1915767572439
 20
-69.51807308350503
 30
0.0
 10
384.4926214470099
 20
-72.503502887811
 30
0.0
 10
384.9330121579343
 20
-75.58118589765967
 30
0.0
 10
385.5454640485135
 20
-78.72346329701227
 30
0.0
 10
386.4000092226726
 20
-81.94238901446207
 30
0.0
 10
387.3727215726333
 20
-84.55690389856854
 30
0.0
 10
388.3855247574529
 20
-86.57244362543719
 30
0.0
 10
389.3947719038011
 20
-88.19351581030543
 30
0.0
 10
390.7354122409791
 20
-89.81933592724813
 30
0.0
 10
392.4854296889293
 20
-91.26074242662963
 30
0.0
 10
394.4918687744988
 20
-92.28973624241314
 30
0.0
 10
396.6329037915844
 20
-92.85502619465119
 30
0.0
 10
398.8515540515849
 20
-92.99659813714128
 30
0.0
 10
401.1680864531971
 20
-92.73976216382493
 30
0.0
 10
403.5269406608574
 20
-92.09805700708448
 30
0.0
 10
405.0124777083408
 20
-91.31602711224296
 30
0.0
 10
405.7355304039442
 20
-90.93539115000586
 30
0.0
  0
SPLINE
  5
C4
330
1F
100
AcDbEntity
  8
0
  6
Continuous
 62
     7
370
    25
100
AcDbSpline
210
0.0
220
0.0
230
1.0
 70
     8
 71
     3
 72
    14
 73
    10
 74
     0
 42
0.000000001
 43
0.00000001
 40
0.0
 40
0.0
 40
0.0
 40
0.0
 40
0.1310170257138682
 40
0.3570403707593536
 40
0.4689565494680313
 40
0.5808579648677342
 40
0.6966072183552475
 40
0.8136490692035856
 40
1.0
 40
1.0
 40
1.0
 40
1.0
 10
385.7738057085001
 20
-56.36788903558733
 30
0.0
 10
385.6053311489256
 20
-56.45650540793675
 30
0.0
 10
385.1462135732804
 20
-56.69799785723171
 30
0.0
 10
384.7524610108237
 20
-57.50647969323509
 30
0.0
 10
384.4443329774746
 20
-58.5176238714093
 30
0.0
 10
384.2610031235792
 20
-59.43613532843677
 30
0.0
 10
384.1208044202715
 20
-60.52243329716691
 30
0.0
 10
384.0015747157308
 20
-62.01487470040186
 30
0.0
 10
383.9838174942303
 20
-63.30328346616204
 30
0.0
 10
383.9729105941484
 20
-64.09465421481354
 30
0.0
  0
LWPOLYLINE
  5
C5
330
1F
100
AcDbEntity
  8
0
  6
Continuous
 62
     7
370
    25
100
AcDbPolyline
 90
       84
 70
   128
 43
0.0
 10
321.7475138497
 20
-28.1726972946
 10
321.6837225129
 20
-26.2642735862
 10
321.4927138935
 20
-24.4404330656
 10
321.1755820714
 20
-22.7116225264
 10
320.7341435492
 20
-21.0877444387
 10
320.1709268467
 20
-19.578100229
 10
319.4891580181
 20
-18.1913370028
 10
318.6927421735
 20
-16.9353980142
 10
317.7862411108
 20
-15.8174771681
 10
316.774847186
 20
-14.8439778136
 10
315.6643535719
 20
-14.0204760671
 10
314.4611210754
 20
-13.351688872
 10
313.1720417032
 20
-12.8414469807
 10
311.8044991852
 20
-12.4926730125
 10
310.3663266811
 20
-12.3073647132
 10
308.8657619128
 20
-12.286583512
 10
307.3113999794
 20
-12.4304484417
 10
305.7121441253
 20
-12.7381354569
 10
304.0771547432
 20
-13.2078821544
 10
302.4157969042
 20
-13.8369978675
 10
300.7375867156
 20
-14.6218790785
 10
299.0521368133
 20
-15.5580300589
 10
297.3691013018
 20
-16.6400886206
 10
295.698120456
 20
-17.8618568301
 10
294.0487655029
 20
-19.2163365098
 10
292.4304837983
 20
-20.6957693228
 10
290.8525447133
 20
-22.2916812119
 10
289.32398654
 20
-23.9949309383
 10
287.8535647213
 20
-25.7957624418
 10
286.4497017001
 20
-27.6838607227
 10
285.1204386768
 20
-29.648410925
 10
283.8733895495
 20
-31.6781602829
 10
282.7156973026
 20
-33.7614825761
 10
281.6539930927
 20
-35.8864447231
 10
280.6943582651
 20
-38.0408751332
 10
279.8422895214
 20
-40.2124334239
 10
279.102667434
 20
-42.3886811063
 10
278.4797284914
 20
-44.5571528305
 10
277.9770408314
 20
-46.7054277869
 10
277.5974838034
 20
-48.8212008511
 10
277.3432314757
 20
-50.8923530667
 10
277.2157401825
 20
-52.9070210612
 10
277.2157401825
 20
-54.8536649989
 10
277.3432314757
 20
-56.7211346796
 10
277.5974838034
 20
-58.498733406
 10
277.9770408314
 20
-60.1762792536
 10
278.4797284914
 20
-61.7441633918
 10
279.102667434
 20
-63.1934051221
 10
279.8422895214
 20
-64.5157033192
 10
280.6943582651
 20
-65.7034839787
 10
281.6539930927
 20
-66.7499436007
 10
282.7156973026
 20
-67.6490881591
 10
283.8733895495
 20
-68.3957674354
 10
285.1204386768
 20
-68.9857045182
 10
286.4497017001
 20
-69.4155203014
 10
287.8535647213
 20
-69.6827528392
 10
289.32398654
 20
-69.7858714476
 10
290.8525447133
 20
-69.7242854728
 10
292.4304837983
 20
-69.4983476735
 10
294.0487655029
 20
-69.109352201
 10
295.698120456
 20
-68.5595271861
 10
297.3691013018
 20
-67.8520219769
 10
299.0521368133
 20
-66.9908890989
 10
300.7375867156
 20
-65.9810610434
 10
302.4157969042
 20
-64.828322014
 10
304.0771547432
 20
-63.5392747955
 10
305.7121441253
 20
-62.1213029336
 10
307.3113999794
 20
-60.5825284428
 10
308.8657619128
 20
-58.9317652839
 10
310.3663266811
 20
-57.1784688788
 10
311.8044991852
 20
-55.3326819506
 10
313.1720417032
 20
-53.4049769997
 10
314.4611210754
 20
-51.4063957454
 10
315.6643535719
 20
-49.3483858801
 10
316.774847186
 20
-47.2427354981
 10
317.7862411108
 20
-45.101505574
 10
318.6927421735
 20
-42.9369608788
 10
319.4891580181
 20
-40.7614997287
 10
320.1709268467
 20
-38.587582968
 10
320.7341435492
 20
-36.4276625951
 10
321.1755820714
 20
-34.2941104383
 10
321.4927138935
 20
-32.1991472912
 10
321.6837225129
 20
-30.1547729128
 10
321.7475138497
 20
-28.1726972946
  0
LWPOLYLINE
  5
C6
330
1F
100
AcDbEntity
  8
0
  6
Continuous
 62
     7
370
    25
100
AcDbPolyline
 90
       12
 70
   128
 43
0.0
 10
474.482578586
 20
-116.3447733715
 10
474.4187872492
 20
-114.436349663
 10
474.2277786298
 20
-112.6125091425
 10
473.9106468077
 20
-110.8836986033
 10
473.4692082855
 20
-109.2598205155
 10
472.905991583
 20
-107.7501763059
 10
472.2242227544
 20
-106.3634130797
 10
471.4278069098
 20
-105.1074740911
 10
470.5213058471
 20
-103.9895532449
 10
469.5099119223
 20
-103.0160538905
 10
468.3994183082
 20
-102.192552144
 10
467.9574350177
 20
-101.9226619677
  0
LWPOLYLINE
  5
C7
330
1F
100
AcDbEntity
  8
0
  6
Continuous
 62
     7
370
    25
100
AcDbPolyline
 90
       33
 70
   128
 43
0.0
 10
436.4599949396
 20
-156.4837402977
 10
436.6084542858
 20
-156.5678435122
 10
437.8555034131
 20
-157.1577805951
 10
439.1847664364
 20
-157.5875963783
 10
440.5886294576
 20
-157.854828916
 10
442.0590512763
 20
-157.9579475245
 10
443.5876094496
 20
-157.8963615496
 10
445.1655485346
 20
-157.6704237503
 10
446.7838302392
 20
-157.2814282778
 10
448.4331851923
 20
-156.731603263
 10
450.1041660381
 20
-156.0240980537
 10
451.7872015496
 20
-155.1629651758
 10
453.4726514519
 20
-154.1531371203
 10
455.1508616405
 20
-153.0003980909
 10
456.8122194795
 20
-151.7113508724
 10
458.4472088616
 20
-150.2933790105
 10
460.0464647157
 20
-148.7546045196
 10
461.6008266491
 20
-147.1038413607
 10
463.1013914174
 20
-145.3505449556
 10
464.5395639215
 20
-143.5047580275
 10
465.9071064395
 20
-141.5770530765
 10
467.1961858117
 20
-139.5784718222
 10
468.3994183082
 20
-137.520461957
 10
469.5099119223
 20
-135.4148115749
 10
470.5213058471
 20
-133.2735816508
 10
471.4278069098
 20
-131.1090369557
 10
472.2242227544
 20
-128.9335758055
 10
472.905991583
 20
-126.7596590449
 10
473.4692082855
 20
-124.599738672
 10
473.9106468077
 20
-122.4661865152
 10
474.2277786298
 20
-120.371223368
 10
474.4187872492
 20
-118.3268489897
 10
474.482578586
 20
-116.3447733715
  0
LWPOLYLINE
  5
C8
330
1F
100
AcDbEntity
  8
0
  6
Continuous
 62
     7
370
    25
100
AcDbPolyline
 90
       76
 70
   128
 43
0.0
 10
317.6462945189
 20
-30.5402808189
 10
317.5825604976
 20
-28.8210858711
 10
317.3918054821
 20
-27.1875355752
 10
317.0753674817
 20
-25.6510881129
 10
316.6354660818
 20
-24.2225205593
 10
316.0751868745
 20
-22.9118532892
 10
315.3984598159
 20
-21.7282796919
 10
314.6100316601
 20
-20.6801016857
 10
313.7154326642
 20
-19.7746714863
 10
312.7209377972
 20
-19.018340036
 10
311.6335227262
 20
-18.4164124564
 10
310.4608148866
 20
-17.973110837
 10
309.2110399813
 20
-17.6915446202
 10
307.8929642833
 20
-17.5736887907
 10
306.5158331465
 20
-17.6203700225
 10
305.0893061565
 20
-17.8312608802
 10
303.6233893751
 20
-18.204882116
 10
302.1283651553
 20
-18.7386130454
 10
300.6147200177
 20
-19.4287099294
 10
299.0930710955
 20
-20.2703322343
 10
297.5740916626
 20
-21.2575765841
 10
296.0684362683
 20
-22.3835181692
 10
294.5866660034
 20
-23.6402593184
 10
293.1391744216
 20
-25.0189848953
 10
291.7361146364
 20
-26.5100241308
 10
290.3873281041
 20
-28.1029184559
 10
289.1022755931
 20
-29.7864948613
 10
287.8899708233
 20
-31.5489442684
 10
286.7589172419
 20
-33.3779043607
 10
285.7170483769
 20
-35.2605462973
 10
284.7716721899
 20
-37.1836646978
 10
283.9294198156
 20
-39.1337702683
 10
283.1961990493
 20
-41.0971844194
 10
282.5771529077
 20
-43.0601352115
 10
282.0766235548
 20
-45.0088539553
 10
281.6981218443
 20
-46.9296717887
 10
281.4443026939
 20
-48.809115555
 10
281.3169464624
 20
-50.6340023064
 10
281.3169464624
 20
-52.3915317735
 10
281.4443026939
 20
-54.0693761499
 10
281.6981218443
 20
-55.6557665629
 10
282.0766235548
 20
-57.1395756235
 10
282.5771529077
 20
-58.5103954773
 10
283.1961990493
 20
-59.7586108079
 10
283.9294198156
 20
-60.8754662817
 10
284.7716721899
 20
-61.8531279599
 10
285.7170483769
 20
-62.6847382482
 10
286.7589172419
 20
-63.3644639982
 10
287.8899708233
 20
-63.887537422
 10
289.1022755931
 20
-64.2502895353
 10
290.3873281041
 20
-64.4501758927
 10
291.7361146364
 20
-64.4857944351
 10
293.1391744216
 20
-64.3568953239
 10
294.5866660034
 20
-64.0643826939
 10
296.0684362683
 20
-63.6103083109
 10
297.5740916626
 20
-62.9978571805
 10
299.0930710955
 20
-62.2313252073
 10
300.6147200177
 20
-61.3160890623
 10
302.1283651553
 20
-60.2585684696
 10
303.6233893751
 20
-59.0661811762
 10
305.0893061565
 20
-57.7472909224
 10
306.5158331465
 20
-56.3111487755
 10
307.8929642833
 20
-54.7678282409
 10
309.2110399813
 20
-53.1281546033
 10
310.4608148866
 20
-51.4036289951
 10
311.6335227262
 20
-49.6063477244
 10
312.7209377972
 20
-47.7489174279
 10
313.7154326642
 20
-45.8443666447
 10
314.6100316601
 20
-43.9060544301
 10
315.3984598159
 20
-41.9475766515
 10
316.0751868745
 20
-39.9826706235
 10
316.6354660818
 20
-38.02511875
 10
317.0753674817
 20
-36.0886518509
 10
317.3918054821
 20
-34.1868528502
 10
317.5825604976
 20
-32.3330615014
 10
317.6462945189
 20
-30.5402808189
  0
LWPOLYLINE
  5
C9
330
1F
100
AcDbEntity
  8
0
  6
Continuous
 62
     7
370
    25
100
AcDbPolyline
 90
       61
 70
   128
 43
0.0
 10
457.3705944813
 20
-51.3586876704
 10
457.3074547209
 20
-49.9310042355
 10
457.1187272121
 20
-48.4460631834
 10
456.806479693
 20
-46.9201338391
 10
456.3741332127
 20
-45.3699346036
 10
455.8264246498
 20
-43.8124497844
 10
455.1693548139
 20
-42.2647435109
 10
454.4101226996
 20
-40.7437727771
 10
453.5570466128
 20
-39.2662016564
 10
452.6194730337
 20
-37.8482187274
 10
451.6076742146
 20
-36.5053597077
 10
450.5327356351
 20
-35.2523372418
 10
449.4064345472
 20
-34.1028797059
 10
448.2411109414
 20
-33.0695807975
 10
447.0495323468
 20
-32.1637615556
 10
445.844753948
 20
-31.3953463253
 10
444.6399755492
 20
-30.7727540247
 10
443.4483969546
 20
-30.3028059054
 10
442.2830733487
 20
-29.9906508173
 10
441.1567722608
 20
-29.8397087968
 10
440.0818336813
 20
-29.8516335963
 10
439.0700348622
 20
-30.0262945653
 10
438.1324612831
 20
-30.3617780815
 10
437.2793851963
 20
-30.8544085175
 10
436.520153082
 20
-31.4987885109
 10
435.8630832461
 20
-32.2878580999
 10
435.3153746832
 20
-33.2129720728
 10
434.883028203
 20
-34.2639946874
 10
434.5707806838
 20
-35.4294107199
 10
434.382053175
 20
-36.6964516284
 10
434.3189134146
 20
-38.0512354477
 10
434.382053175
 20
-39.4789188826
 10
434.5707806838
 20
-40.9638599346
 10
434.883028203
 20
-42.489789279
 10
435.3153746832
 20
-44.0399885144
 10
435.8630832461
 20
-45.5974733336
 10
436.520153082
 20
-47.1451796071
 10
437.2793851963
 20
-48.666150341
 10
438.1324612831
 20
-50.1437214616
 10
439.0700348622
 20
-51.5617043907
 10
440.0818336813
 20
-52.9045634104
 10
441.1567722608
 20
-54.1575858763
 10
442.2830733487
 20
-55.3070434121
 10
443.4483969546
 20
-56.3403423205
 10
444.6399755492
 20
-57.2461615625
 10
445.844753948
 20
-58.0145767928
 10
447.0495323468
 20
-58.6371690933
 10
448.2411109414
 20
-59.1071172126
 10
449.4064345472
 20
-59.4192723008
 10
450.5327356351
 20
-59.5702143213
 10
451.6076742146
 20
-59.5582895217
 10
452.6194730337
 20
-59.3836285528
 10
453.5570466128
 20
-59.0481450365
 10
454.4101226996
 20
-58.5555146006
 10
455.1693548139
 20
-57.9111346071
 10
455.8264246498
 20
-57.1220650182
 10
456.3741332127
 20
-56.1969510453
 10
456.806479693
 20
-55.1459284307
 10
457.1187272121
 20
-53.9805123982
 10
457.3074547209
 20
-52.7134714896
 10
457.3705944813
 20
-51.3586876704
  0
LWPOLYLINE
  5
CA
330
1F
100
AcDbEntity
  8
0
  6
Continuous
 62
     7
370
    25
100
AcDbPolyline
 90
       67
 70
   128
 43
0.0
 10
459.9868895717
 20
-52.8690426773
 10
459.9228528866
 20
-51.2797323103
 10
459.7313227575
 20
-49.6308798014
 10
459.4140337108
 20
-47.937417414
 10
458.9738591654
 20
-46.2146814059
 10
458.41478541
 20
-44.478273141
 10
457.7418755032
 20
-42.7439178016
 10
456.9612234213
 20
-41.0273219781
 10
456.0798988704
 20
-39.3440314281
 10
455.1058832621
 20
-37.7092902916
 10
454.0479974326
 20
-36.1379030374
 10
452.9158217598
 20
-34.6441003917
 10
451.719609402
 20
-33.2414104628
 10
450.4701934434
 20
-31.9425362278
 10
449.1788887885
 20
-30.7592404929
 10
447.8573896921
 20
-29.7022393675
 10
446.5176638548
 20
-28.7811052175
 10
445.1718440412
 20
-28.0041799764
 10
443.8321182038
 20
-27.3784995995
 10
442.5106191075
 20
-26.9097303452
 10
441.2193144526
 20
-26.6021174604
 10
439.969898494
 20
-26.4584467351
 10
438.7736861361
 20
-26.4800192735
 10
437.6415104633
 20
-26.6666397115
 10
436.5836246339
 20
-27.0166179854
 10
435.6096090256
 20
-27.5267846379
 10
434.7282844747
 20
-28.1925195206
 10
433.9476323927
 20
-29.0077936355
 10
433.2747224859
 20
-29.9652237339
 10
432.7156487305
 20
-31.0561391805
 10
432.2754741851
 20
-32.2706604761
 10
431.9581851384
 20
-33.5977887278
 10
431.7666550093
 20
-35.0255052567
 10
431.7026183242
 20
-36.5408804408
 10
431.7666550093
 20
-38.1301908077
 10
431.9581851384
 20
-39.7790433167
 10
432.2754741851
 20
-41.472505704
 10
432.7156487305
 20
-43.1952417122
 10
433.2747224859
 20
-44.931649977
 10
433.9476323927
 20
-46.6660053165
 10
434.7282844747
 20
-48.38260114
 10
435.6096090256
 20
-50.0658916899
 10
436.5836246339
 20
-51.7006328265
 10
437.6415104633
 20
-53.2720200807
 10
438.7736861361
 20
-54.7658227263
 10
439.969898494
 20
-56.1685126552
 10
441.2193144526
 20
-57.4673868902
 10
442.5106191075
 20
-58.6506826252
 10
443.8321182038
 20
-59.7076837505
 10
445.1718440412
 20
-60.6288179005
 10
446.5176638548
 20
-61.4057431416
 10
447.8573896921
 20
-62.0314235185
 10
449.1788887885
 20
-62.5001927728
 10
450.4701934434
 20
-62.8078056576
 10
451.719609402
 20
-62.951476383
 10
452.9158217598
 20
-62.9299038445
 10
454.0479974326
 20
-62.7432834065
 10
455.1058832621
 20
-62.3933051326
 10
456.0798988704
 20
-61.8831384802
 10
456.9612234213
 20
-61.2174035974
 10
457.7418755032
 20
-60.4021294825
 10
458.41478541
 20
-59.4446993842
 10
458.9738591654
 20
-58.3537839376
 10
459.4140337108
 20
-57.1392626419
 10
459.7313227575
 20
-55.8121343902
 10
459.9228528866
 20
-54.3844178613
 10
459.9868895717
 20
-52.8690426773
  0
ENDSEC
  0
SECTION
  2
OBJECTS
  0
DICTIONARY
  5
C
330
0
100
AcDbDictionary
281
     1
  3
ACAD_GROUP
350
D
  3
ACAD_LAYOUT
350
1A
  3
ACAD_MLINESTYLE
350
17
  3
ACAD_PLOTSETTINGS
350
19
  3
ACAD_PLOTSTYLENAME
350
E
  3
ACAD_SCALELIST
350
47
  0
DICTIONARY
  5
D
102
{ACAD_REACTORS
330
C
102
}
330
C
100
AcDbDictionary
281
     1
  0
DICTIONARY
  5
1A
102
{ACAD_REACTORS
330
C
102
}
330
C
100
AcDbDictionary
281
     1
  3
Layout1
350
1E
  3
Layout2
350
26
  3
Model
350
22
  0
DICTIONARY
  5
17
102
{ACAD_REACTORS
330
C
102
}
330
C
100
AcDbDictionary
281
     1
  3
Standard
350
18
  0
DICTIONARY
  5
19
102
{ACAD_REACTORS
330
C
102
}
330
C
100
AcDbDictionary
281
     1
  0
ACDBDICTIONARYWDFLT
  5
E
102
{ACAD_REACTORS
330
C
102
}
330
C
100
AcDbDictionary
281
     1
  3
Normal
350
F
100
AcDbDictionaryWithDefault
340
F
  0
DICTIONARY
  5
47
102
{ACAD_REACTORS
330
C
102
}
330
C
100
AcDbDictionary
281
     1
  3
A0
350
48
  3
A1
350
49
  3
A2
350
4A
  3
A3
350
4B
  3
A4
350
4C
  3
A5
350
4D
  3
A6
350
4E
  3
A7
350
4F
  3
A8
350
50
  3
A9
350
51
  3
B0
350
52
  3
B1
350
53
  3
B2
350
54
  3
B3
350
55
  3
B4
350
56
  3
B5
350
57
  3
B6
350
58
  3
B7
350
59
  3
B8
350
5A
  3
B9
350
5B
  3
C0
350
5C
  3
C1
350
5D
  3
C2
350
5E
  3
C3
350
5F
  3
C4
350
60
  3
C5
350
61
  3
C6
350
62
  3
C7
350
63
  3
C8
350
64
  3
C9
350
65
  3
D0
350
66
  3
D1
350
67
  3
D2
350
68
  0
LAYOUT
  5
1E
102
{ACAD_REACTORS
330
1A
102
}
330
1A
100
AcDbPlotSettings
  1

  2
none_device
  4

  6

 40
0.0
 41
0.0
 42
0.0
 43
0.0
 44
0.0
 45
0.0
 46
0.0
 47
0.0
 48
0.0
 49
0.0
140
0.0
141
0.0
142
1.0
143
1.0
 70
   688
 72
     1
 73
     0
 74
     5
  7

 75
    16
147
1.0
148
0.0
149
0.0
100
AcDbLayout
  1
Layout1
 70
     1
 71
     1
 10
0.0
 20
0.0
 11
420.0
 21
297.0
 12
0.0
 22
0.0
 32
0.0
 14
1.0000000000E+20
 24
1.0000000000E+20
 34
1.0000000000E+20
 15
-1.0000000000E+20
 25
-1.0000000000E+20
 35
-1.0000000000E+20
146
0.0
 13
0.0
 23
0.0
 33
0.0
 16
1.0
 26
0.0
 36
0.0
 17
0.0
 27
1.0
 37
0.0
 76
     0
330
1B
  0
LAYOUT
  5
26
102
{ACAD_REACTORS
330
1A
102
}
330
1A
100
AcDbPlotSettings
  1

  2
none_device
  4

  6

 40
0.0
 41
0.0
 42
0.0
 43
0.0
 44
0.0
 45
0.0
 46
0.0
 47
0.0
 48
0.0
 49
0.0
140
0.0
141
0.0
142
1.0
143
1.0
 70
   688
 72
     1
 73
     0
 74
     5
  7

 75
    16
147
1.0
148
0.0
149
0.0
100
AcDbLayout
  1
Layout2
 70
     1
 71
     2
 10
0.0
 20
0.0
 11
0.0
 21
0.0
 12
0.0
 22
0.0
 32
0.0
 14
0.0
 24
0.0
 34
0.0
 15
0.0
 25
0.0
 35
0.0
146
0.0
 13
0.0
 23
0.0
 33
0.0
 16
1.0
 26
0.0
 36
0.0
 17
0.0
 27
1.0
 37
0.0
 76
     0
330
23
  0
LAYOUT
  5
22
102
{ACAD_REACTORS
330
1A
102
}
330
1A
100
AcDbPlotSettings
  1

  2
none_device
  4
Letter_(8.50_x_11.00_Inches)
  6

 40
6.35
 41
6.35
 42
6.35000508
 43
6.35000508
 44
215.9
 45
279.4
 46
0.0
 47
0.0
 48
0.0
 49
0.0
140
0.0
141
0.0
142
1.0
143
1.0
 70
  1712
 72
     1
 73
     0
 74
     0
  7

 75
     0
147
1.0
148
0.0
149
0.0
100
AcDbLayout
  1
Model
 70
     1
 71
     0
 10
0.0
 20
0.0
 11
279.4
 21
215.9
 12
0.0
 22
0.0
 32
0.0
 14
0.0
 24
0.0
 34
0.0
 15
279.4
 25
215.9
 35
0.0
146
0.0
 13
0.0
 23
0.0
 33
0.0
 16
1.0
 26
0.0
 36
0.0
 17
0.0
 27
1.0
 37
0.0
 76
     0
330
1F
331
29
  0
MLINESTYLE
  5
18
102
{ACAD_REACTORS
330
17
102
}
330
17
100
AcDbMlineStyle
  2
Standard
 70
     0
  3

 62
   256
 51
90.0
 52
90.0
 71
     2
 49
0.5
 62
   256
  6
BYLAYER
 49
-0.5
 62
   256
  6
BYLAYER
  0
ACDBPLACEHOLDER
  5
F
102
{ACAD_REACTORS
330
E
102
}
330
E
  0
SCALE
  5
48
102
{ACAD_REACTORS
330
47
102
}
330
47
100
AcDbScale
 70
     0
300
1:1
140
1.0
141
1.0
290
     1
  0
SCALE
  5
49
102
{ACAD_REACTORS
330
47
102
}
330
47
100
AcDbScale
 70
     0
300
1:2
140
1.0
141
2.0
290
     0
  0
SCALE
  5
4A
102
{ACAD_REACTORS
330
47
102
}
330
47
100
AcDbScale
 70
     0
300
1:4
140
1.0
141
4.0
290
     0
  0
SCALE
  5
4B
102
{ACAD_REACTORS
330
47
102
}
330
47
100
AcDbScale
 70
     0
300
1:5
140
1.0
141
5.0
290
     0
  0
SCALE
  5
4C
102
{ACAD_REACTORS
330
47
102
}
330
47
100
AcDbScale
 70
     0
300
1:8
140
1.0
141
8.0
290
     0
  0
SCALE
  5
4D
102
{ACAD_REACTORS
330
47
102
}
330
47
100
AcDbScale
 70
     0
300
1:10
140
1.0
141
10.0
290
     0
  0
SCALE
  5
4E
102
{ACAD_REACTORS
330
47
102
}
330
47
100
AcDbScale
 70
     0
300
1:16
140
1.0
141
16.0
290
     0
  0
SCALE
  5
4F
102
{ACAD_REACTORS
330
47
102
}
330
47
100
AcDbScale
 70
     0
300
1:20
140
1.0
141
20.0
290
     0
  0
SCALE
  5
50
102
{ACAD_REACTORS
330
47
102
}
330
47
100
AcDbScale
 70
     0
300
1:30
140
1.0
141
30.0
290
     0
  0
SCALE
  5
51
102
{ACAD_REACTORS
330
47
102
}
330
47
100
AcDbScale
 70
     0
300
1:40
140
1.0
141
40.0
290
     0
  0
SCALE
  5
52
102
{ACAD_REACTORS
330
47
102
}
330
47
100
AcDbScale
 70
     0
300
1:50
140
1.0
141
50.0
290
     0
  0
SCALE
  5
53
102
{ACAD_REACTORS
330
47
102
}
330
47
100
AcDbScale
 70
     0
300
1:100
140
1.0
141
100.0
290
     0
  0
SCALE
  5
54
102
{ACAD_REACTORS
330
47
102
}
330
47
100
AcDbScale
 70
     0
300
2:1
140
2.0
141
1.0
290
     0
  0
SCALE
  5
55
102
{ACAD_REACTORS
330
47
102
}
330
47
100
AcDbScale
 70
     0
300
4:1
140
4.0
141
1.0
290
     0
  0
SCALE
  5
56
102
{ACAD_REACTORS
330
47
102
}
330
47
100
AcDbScale
 70
     0
300
8:1
140
8.0
141
1.0
290
     0
  0
SCALE
  5
57
102
{ACAD_REACTORS
330
47
102
}
330
47
100
AcDbScale
 70
     0
300
10:1
140
10.0
141
1.0
290
     0
  0
SCALE
  5
58
102
{ACAD_REACTORS
330
47
102
}
330
47
100
AcDbScale
 70
     0
300
100:1
140
100.0
141
1.0
290
     0
  0
SCALE
  5
59
102
{ACAD_REACTORS
330
47
102
}
330
47
100
AcDbScale
 70
     0
300
1/128" = 1'-0"
140
0.0078125
141
12.0
290
     0
  0
SCALE
  5
5A
102
{ACAD_REACTORS
330
47
102
}
330
47
100
AcDbScale
 70
     0
300
1/64" = 1'-0"
140
0.015625
141
12.0
290
     0
  0
SCALE
  5
5B
102
{ACAD_REACTORS
330
47
102
}
330
47
100
AcDbScale
 70
     0
300
1/32" = 1'-0"
140
0.03125
141
12.0
290
     0
  0
SCALE
  5
5C
102
{ACAD_REACTORS
330
47
102
}
330
47
100
AcDbScale
 70
     0
300
1/16" = 1'-0"
140
0.0625
141
12.0
290
     0
  0
SCALE
  5
5D
102
{ACAD_REACTORS
330
47
102
}
330
47
100
AcDbScale
 70
     0
300
3/32" = 1'-0"
140
0.09375
141
12.0
290
     0
  0
SCALE
  5
5E
102
{ACAD_REACTORS
330
47
102
}
330
47
100
AcDbScale
 70
     0
300
1/8" = 1'-0"
140
0.125
141
12.0
290
     0
  0
SCALE
  5
5F
102
{ACAD_REACTORS
330
47
102
}
330
47
100
AcDbScale
 70
     0
300
3/16" = 1'-0"
140
0.1875
141
12.0
290
     0
  0
SCALE
  5
60
102
{ACAD_REACTORS
330
47
102
}
330
47
100
AcDbScale
 70
     0
300
1/4" = 1'-0"
140
0.25
141
12.0
290
     0
  0
SCALE
  5
61
102
{ACAD_REACTORS
330
47
102
}
330
47
100
AcDbScale
 70
     0
300
3/8" = 1'-0"
140
0.375
141
12.0
290
     0
  0
SCALE
  5
62
102
{ACAD_REACTORS
330
47
102
}
330
47
100
AcDbScale
 70
     0
300
1/2" = 1'-0"
140
0.5
141
12.0
290
     0
  0
SCALE
  5
63
102
{ACAD_REACTORS
330
47
102
}
330
47
100
AcDbScale
 70
     0
300
3/4" = 1'-0"
140
0.75
141
12.0
290
     0
  0
SCALE
  5
64
102
{ACAD_REACTORS
330
47
102
}
330
47
100
AcDbScale
 70
     0
300
1" = 1'-0"
140
1.0
141
12.0
290
     0
  0
SCALE
  5
65
102
{ACAD_REACTORS
330
47
102
}
330
47
100
AcDbScale
 70
     0
300
1-1/2" = 1'-0"
140
1.5
141
12.0
290
     0
  0
SCALE
  5
66
102
{ACAD_REACTORS
330
47
102
}
330
47
100
AcDbScale
 70
     0
300
3" = 1'-0"
140
3.0
141
12.0
290
     0
  0
SCALE
  5
67
102
{ACAD_REACTORS
330
47
102
}
330
47
100
AcDbScale
 70
     0
300
6" = 1'-0"
140
6.0
141
12.0
290
     0
  0
SCALE
  5
68
102
{ACAD_REACTORS
330
47
102
}
330
47
100
AcDbScale
 70
     0
300
1'-0" = 1'-0"
140
12.0
141
12.0
290
     0
  0
ENDSEC
  0
EOF
